Angelarena

 Recherche :    
  S'enregistrer / Login Accueil ·  Forum ·  Téléchargements ·  Recherche ·  Liens Web   

  Video Youtube
Brink - Trailer \\\'SMART\\\'

You need Flash player 8+ and JavaScript enabled to view this video


  Login
Pseudo :
Pass :
 Enregistré
S'enregistrer
Perdu votre Pass ?

  Menu Général
Accueil
News
Video Youtube
Forum
Téléchargements
Membres
Articles
Calendrier
Galerie
Recherche
Nous Recommander
Nous Contacter
Sites a voir
Syndication RSS
Video
COD 4 search player
Votre IP

  Recherche
Recherche avancée

  Server Teamspeak N$A
Net Squad Alpha TeamSpeak Viewer

  • Votez pour Angelarena sur Google
    n'hésitez pas à voter par un simple clic Merci


  • aller-retour + agilité|difficulté 2.5/4< Sujet précédent  
    Index du Forum -> Guitare & Musique -> Cours et exos
    AuteurMessage
    lepeck
    Administrator



    Messages : 23
    Inscrit(e) le: 25/05/2006
    Posté le 17/11/2006 12:17  
    aller-retour + agilité|difficulté 2.5/4



    E--14--12--10--8-------12--10--8-------------10--8------------------8-
    B----------------------14-----------------14--12----------14--12--10-----
    G---------------------------------------------------------------------------------
    D--------------------------------------------------------------------------------
    A--------------------------------------------------------------------------------
    E---------------------------------------------------------------------------------


    E----------------------------------------------------------------------------
    B--14--12--10--8--14--12--10--8-------12--10--8------------10
    G-------------------------------------------14---------------14--12-----
    D---------------------------------------------------------------------------
    A---------------------------------------------------------------------------
    E----------------------------------------------------------------------------


    E--------------------------------------------------------------------------
    B--8-----------------8---------------------------------------------------
    G-----14--12--10----14--12--10--8--14--12--10--8------12--
    D---------------------------------------------------------------14-------
    A-------------------------------------------------------------------------
    E--------------------------------------------------------------------------


    E--------------------------------------------------------------------------
    B--------------------------------------------------------------------------
    G--10--8-------------10--8------------------8-------------------------
    D-----------14--12-----------14--12--10-----14--12--10--8--14
    A--------------------------------------------------------------------------
    E--------------------------------------------------------------------------


    E--------------------------------------------------------------------------
    B--------------------------------------------------------------------------
    G--------------------------------------------------------------------------
    D--12--10--8--------12--10--8-------------10--8-----------------8
    A-----------------14-----------------14--12-----------14--12--10--
    E--------------------------------------------------------------------------


    E--------------------------------------------------------------------------
    B--------------------------------------------------------------------------
    G--------------------------------------------------------------------------
    D--------------------------------------------------------------------------
    A--14--12--10--8--14--12--10--8--------12--10--8------------
    E-------------------------------------------14-----------------14--12--


    E-------------------------------------------------------------------------
    B-------------------------------------------------------------------------
    G-------------------------------------------------------------------------
    D-------------------------------------------------------------------------
    A--10--8-------------------8-------------------------------------------
    E------------14--12--10------14--12--10--8~~-------------------


    Cet exo polychromatique est chaud parce qu'il est en 4/5, donc vous devez faire sonner des quintolets...La deuxième difficulté réside dans le fait que tous les doigts de la main gauche sont utilisés en même temps (successivement, bien entendu...). L'écart entre chaque doigt est pratiquement le même, vous avez la main en "araignée"!

    L'index s'occupera de jouer les cases 8,
    le majeur s'occupera de jouer les cases 10,
    l'annulaire s'occupera de jouer les cases 12, et
    l'auriculaire s'occupera de jouer les cases 14!

    Aujourd'hui j'arrive à le faire en quatre-double à 120/noire, et il aide énormément pour le jeu en aller-retour!!! Je ne fais pas l'aller-retour strict, je fais un mini-sweep lors du changement de corde si besoin est, mais c'est pas grave, je pense qu'en strict, il fait travailler aussi bien, sinon mieux! Et pour l'agilité et l'indépendance des doigts, j'ai rarement vu mieux!

    Bon courage...

    Revenir en haut

      Heure

      Téléchargement
    Applications
    Audio tools
    Bureautique
    Développement
    Drivers
    Internet Tools
    Images Tools
    Jeux
    Personnaliser son PC
    Telephonie & PDA
    Video Tools
    Securité et Cryptage
    Systeme

      Teamspeak Viewer

      Messages Forum
     [Synology] Sabnzbd
     [Android] telecharge...
     [synology] tuto pour...
     [openvpn] tuto
     [firefox] 3 astuces ...
     
    Bienvenue sur Angelarena, n'hésitez pas à utiliser le forum pour poser une question ou chercher une réponse.